ISO-10303-21;
HEADER;
FILE_DESCRIPTION (( 'STEP AP203' ),
    '1' );
FILE_NAME ('BK7-LPBSC-20-915.STEP',
    '2020-12-22T03:13:50',
    ( '' ),
    ( '' ),
    'SwSTEP 2.0',
    'SolidWorks 2020',
    '' );
FILE_SCHEMA (( 'CONFIG_CONTROL_DESIGN' ));
ENDSEC;

DATA;
#1 = LINE ( 'NONE', #94, #51 ) ;
#2 = SECURITY_CLASSIFICATION ( '', '', #45 ) ;
#3 = EDGE_LOOP ( 'NONE', ( #253, #119, #216 ) ) ;
#4 = DIRECTION ( 'NONE',  ( -0.000000000000000000, 0.000000000000000000, 1.000000000000000000 ) ) ;
#5 = VERTEX_POINT ( 'NONE', #61 ) ;
#6 = DIRECTION ( 'NONE',  ( -0.7071067811865475727, -0.7071067811865474617, 0.000000000000000000 ) ) ;
#7 = APPLICATION_PROTOCOL_DEFINITION ( 'international standard', 'config_control_design', 1994, #274 ) ;
#8 = CC_DESIGN_PERSON_AND_ORGANIZATION_ASSIGNMENT ( #224, #196, ( #230 ) ) ;
#9 =( LENGTH_UNIT ( ) NAMED_UNIT ( * ) SI_UNIT ( .MILLI., .METRE. ) );
#10 = ORIENTED_EDGE ( 'NONE', *, *, #238, .T. ) ;
#11 = APPROVAL_DATE_TIME ( #166, #169 ) ;
#12 = DIRECTION ( 'NONE',  ( -0.000000000000000000, 0.000000000000000000, -1.000000000000000000 ) ) ;
#13 = DIRECTION ( 'NONE',  ( 2.220446049250313081E-16, 1.000000000000000000, 0.000000000000000000 ) ) ;
#14 = SHAPE_DEFINITION_REPRESENTATION ( #303, #201 ) ;
#15 = VECTOR ( 'NONE', #12, 1000.000000000000000 ) ;
#16 = FACE_OUTER_BOUND ( 'NONE', #3, .T. ) ;
#17 = CARTESIAN_POINT ( 'NONE',  ( 10.00000000000000178, 9.999999999999998224, -10.00000000000000000 ) ) ;
#18 = PRODUCT_RELATED_PRODUCT_CATEGORY ( 'detail', '', ( #46 ) ) ;
#19 = EDGE_LOOP ( 'NONE', ( #300, #55, #251, #103 ) ) ;
#20 = CARTESIAN_POINT ( 'NONE',  ( 10.00000000000000000, 10.00000000000000000, -10.00000000000000000 ) ) ;
#21 = LOCAL_TIME ( 11, 13, 50.00000000000000000, #79 ) ;
#22 = VERTEX_POINT ( 'NONE', #231 ) ;
#23 = LINE ( 'NONE', #288, #48 ) ;
#24 = EDGE_CURVE ( 'NONE', #167, #197, #309, .T. ) ;
#25 = DIRECTION ( 'NONE',  ( 1.000000000000000000, 0.000000000000000000, 0.000000000000000000 ) ) ;
#26 = VERTEX_POINT ( 'NONE', #308 ) ;
#27 = CARTESIAN_POINT ( 'NONE',  ( -9.999999999999998224, -10.00000000000000000, -10.00000000000000000 ) ) ;
#28 = ORIENTED_EDGE ( 'NONE', *, *, #76, .F. ) ;
#29 = VECTOR ( 'NONE', #41, 1000.000000000000000 ) ;
#30 = DIRECTION ( 'NONE',  ( 1.000000000000000000, 0.000000000000000000, 0.000000000000000000 ) ) ;
#31 = APPROVAL_STATUS ( 'not_yet_approved' ) ;
#32 = VERTEX_POINT ( 'NONE', #237 ) ;
#33 = PERSON_AND_ORGANIZATION_ROLE ( 'creator' ) ;
#34 = ADVANCED_FACE ( 'NONE', ( #176 ), #282, .F. ) ;
#35 = DIRECTION ( 'NONE',  ( -0.000000000000000000, 0.000000000000000000, -1.000000000000000000 ) ) ;
#36 = ORIENTED_EDGE ( 'NONE', *, *, #154, .T. ) ;
#37 = CC_DESIGN_APPROVAL ( #169, ( #230 ) ) ;
#38 = LINE ( 'NONE', #203, #15 ) ;
#39 = APPROVAL_STATUS ( 'not_yet_approved' ) ;
#40 = EDGE_CURVE ( 'NONE', #71, #22, #175, .T. ) ;
#41 = DIRECTION ( 'NONE',  ( -0.7071067811865475727, -0.7071067811865474617, 0.000000000000000000 ) ) ;
#42 = PLANE ( 'NONE',  #234 ) ;
#43 = CLOSED_SHELL ( 'NONE', ( #129, #104, #134, #287, #57 ) ) ;
#44 = DIRECTION ( 'NONE',  ( -0.000000000000000000, 0.000000000000000000, 1.000000000000000000 ) ) ;
#45 = SECURITY_CLASSIFICATION_LEVEL ( 'unclassified' ) ;
#46 = PRODUCT ( 'BK7-LPBSC-20-915', 'BK7-LPBSC-20-915', '', ( #247 ) ) ;
#47 = CARTESIAN_POINT ( 'NONE',  ( 10.00000000000000178, 9.999999999999998224, 10.00000000000000000 ) ) ;
#48 = VECTOR ( 'NONE', #64, 1000.000000000000000 ) ;
#49 = FACE_OUTER_BOUND ( 'NONE', #91, .T. ) ;
#50 = CARTESIAN_POINT ( 'NONE',  ( 0.000000000000000000, 0.000000000000000000, -10.00000000000000000 ) ) ;
#51 = VECTOR ( 'NONE', #89, 1000.000000000000000 ) ;
#52 = ORIENTED_EDGE ( 'NONE', *, *, #40, .F. ) ;
#53 = VECTOR ( 'NONE', #35, 1000.000000000000000 ) ;
#54 =( NAMED_UNIT ( * ) PLANE_ANGLE_UNIT ( ) SI_UNIT ( $, .RADIAN. ) );
#55 = ORIENTED_EDGE ( 'NONE', *, *, #291, .F. ) ;
#56 = CALENDAR_DATE ( 2020, 22, 12 ) ;
#57 = ADVANCED_FACE ( 'NONE', ( #235 ), #80, .F. ) ;
#58 = APPLICATION_PROTOCOL_DEFINITION ( 'international standard', 'config_control_design', 1994, #312 ) ;
#59 = CARTESIAN_POINT ( 'NONE',  ( -10.00000000000000178, -9.999999999999996447, 10.00000000000000000 ) ) ;
#60 = LOCAL_TIME ( 11, 13, 50.00000000000000000, #81 ) ;
#61 = CARTESIAN_POINT ( 'NONE',  ( 10.00000000000000178, -10.00000000000000000, -10.00000000000000000 ) ) ;
#62 = CALENDAR_DATE ( 2020, 22, 12 ) ;
#63 = CALENDAR_DATE ( 2020, 22, 12 ) ;
#64 = DIRECTION ( 'NONE',  ( -0.7071067811865475727, -0.7071067811865474617, 0.000000000000000000 ) ) ;
#65 = CARTESIAN_POINT ( 'NONE',  ( 0.000000000000000000, 0.000000000000000000, 10.00000000000000000 ) ) ;
#66 = VECTOR ( 'NONE', #294, 1000.000000000000000 ) ;
#67 = FACE_OUTER_BOUND ( 'NONE', #321, .T. ) ;
#68 = PLANE ( 'NONE',  #205 ) ;
#69 = DIRECTION ( 'NONE',  ( 0.000000000000000000, -0.000000000000000000, 1.000000000000000000 ) ) ;
#70 = VERTEX_POINT ( 'NONE', #178 ) ;
#71 = VERTEX_POINT ( 'NONE', #284 ) ;
#72 = PERSON ( 'UNSPECIFIED', 'UNSPECIFIED', 'UNSPECIFIED', ('UNSPECIFIED'), ('UNSPECIFIED'), ('UNSPECIFIED') ) ;
#73 = PERSON_AND_ORGANIZATION ( #72, #257 ) ;
#74 = EDGE_CURVE ( 'NONE', #32, #167, #152, .T. ) ;
#75 = CARTESIAN_POINT ( 'NONE',  ( 10.00000000000000000, 10.00000000000000000, -10.00000000000000000 ) ) ;
#76 = EDGE_CURVE ( 'NONE', #167, #70, #99, .T. ) ;
#77 = CARTESIAN_POINT ( 'NONE',  ( -9.999999999999998224, -10.00000000000000000, 10.00000000000000000 ) ) ;
#78 = DIRECTION ( 'NONE',  ( 0.000000000000000000, -0.000000000000000000, 1.000000000000000000 ) ) ;
#79 = COORDINATED_UNIVERSAL_TIME_OFFSET ( 8, 0, .AHEAD. ) ;
#80 = PLANE ( 'NONE',  #157 ) ;
#81 = COORDINATED_UNIVERSAL_TIME_OFFSET ( 8, 0, .AHEAD. ) ;
#82 = EDGE_CURVE ( 'NONE', #71, #293, #38, .T. ) ;
#83 = DIRECTION ( 'NONE',  ( 0.7071067811865475727, 0.7071067811865474617, 0.000000000000000000 ) ) ;
#84 = LINE ( 'NONE', #267, #174 ) ;
#85 = DATE_AND_TIME ( #62, #60 ) ;
#86 = ORIENTED_EDGE ( 'NONE', *, *, #295, .T. ) ;
#87 = CARTESIAN_POINT ( 'NONE',  ( 10.00000000000000000, 10.00000000000000000, 10.00000000000000000 ) ) ;
#88 = ORIENTED_EDGE ( 'NONE', *, *, #316, .F. ) ;
#89 = DIRECTION ( 'NONE',  ( -0.000000000000000000, 0.000000000000000000, -1.000000000000000000 ) ) ;
#90 = CC_DESIGN_PERSON_AND_ORGANIZATION_ASSIGNMENT ( #115, #221, ( #46 ) ) ;
#91 = EDGE_LOOP ( 'NONE', ( #112, #194, #107, #199 ) ) ;
#92 = LINE ( 'NONE', #223, #139 ) ;
#93 = APPROVAL_STATUS ( 'not_yet_approved' ) ;
#94 = CARTESIAN_POINT ( 'NONE',  ( -9.999999999999998224, 10.00000000000000355, 10.00000000000000000 ) ) ;
#95 =( NAMED_UNIT ( * ) SI_UNIT ( $, .STERADIAN. ) SOLID_ANGLE_UNIT ( ) );
#96 = VERTEX_POINT ( 'NONE', #281 ) ;
#97 = CC_DESIGN_SECURITY_CLASSIFICATION ( #2, ( #301 ) ) ;
#98 = MANIFOLD_SOLID_BREP ( '¾µÏ', #43 ) ;
#99 = LINE ( 'NONE', #124, #250 ) ;
#100 = EDGE_LOOP ( 'NONE', ( #86, #268, #28, #311 ) ) ;
#101 = VECTOR ( 'NONE', #140, 1000.000000000000000 ) ;
#102 = MANIFOLD_SOLID_BREP ( 'Í¹Ì¨-À', #173 ) ;
#103 = ORIENTED_EDGE ( 'NONE', *, *, #255, .T. ) ;
#104 = ADVANCED_FACE ( 'NONE', ( #127 ), #206, .F. ) ;
#105 = CARTESIAN_POINT ( 'NONE',  ( -9.999999999999998224, -10.00000000000000000, 10.00000000000000000 ) ) ;
#106 = APPROVAL ( #31, 'UNSPECIFIED' ) ;
#107 = ORIENTED_EDGE ( 'NONE', *, *, #74, .F. ) ;
#108 = FACE_OUTER_BOUND ( 'NONE', #142, .T. ) ;
#109 = LINE ( 'NONE', #87, #204 ) ;
#110 = VERTEX_POINT ( 'NONE', #75 ) ;
#111 = DIRECTION ( 'NONE',  ( 1.000000000000000000, -2.220446049250313081E-16, 0.000000000000000000 ) ) ;
#112 = ORIENTED_EDGE ( 'NONE', *, *, #313, .T. ) ;
#113 = FACE_OUTER_BOUND ( 'NONE', #214, .T. ) ;
#114 = AXIS2_PLACEMENT_3D ( 'NONE', #138, #229, #252 ) ;
#115 = PERSON_AND_ORGANIZATION ( #72, #257 ) ;
#116 = ORIENTED_EDGE ( 'NONE', *, *, #122, .F. ) ;
#117 = VECTOR ( 'NONE', #305, 1000.000000000000000 ) ;
#118 = COORDINATED_UNIVERSAL_TIME_OFFSET ( 8, 0, .AHEAD. ) ;
#119 = ORIENTED_EDGE ( 'NONE', *, *, #76, .T. ) ;
#120 = COORDINATED_UNIVERSAL_TIME_OFFSET ( 8, 0, .AHEAD. ) ;
#121 = APPROVAL ( #39, 'UNSPECIFIED' ) ;
#122 = EDGE_CURVE ( 'NONE', #26, #110, #278, .T. ) ;
#123 = VERTEX_POINT ( 'NONE', #132 ) ;
#124 = CARTESIAN_POINT ( 'NONE',  ( -9.999999999999998224, -10.00000000000000000, 10.00000000000000000 ) ) ;
#125 = DIRECTION ( 'NONE',  ( 0.000000000000000000, -0.000000000000000000, 1.000000000000000000 ) ) ;
#126 = PERSON_AND_ORGANIZATION_ROLE ( 'classification_officer' ) ;
#127 = FACE_OUTER_BOUND ( 'NONE', #187, .T. ) ;
#128 = LOCAL_TIME ( 11, 13, 50.00000000000000000, #120 ) ;
#129 = ADVANCED_FACE ( 'NONE', ( #67 ), #42, .F. ) ;
#130 = DIRECTION ( 'NONE',  ( -0.7071067811865474617, 0.7071067811865475727, 0.000000000000000000 ) ) ;
#131 = CARTESIAN_POINT ( 'NONE',  ( 10.00000000000000178, 9.999999999999998224, 10.00000000000000000 ) ) ;
#132 = CARTESIAN_POINT ( 'NONE',  ( -9.999999999999998224, 10.00000000000000355, -10.00000000000000000 ) ) ;
#133 = ORIENTED_EDGE ( 'NONE', *, *, #154, .F. ) ;
#134 = ADVANCED_FACE ( 'NONE', ( #108 ), #292, .F. ) ;
#135 = DIRECTION ( 'NONE',  ( 1.000000000000000000, -2.220446049250313081E-16, 0.000000000000000000 ) ) ;
#136 = CC_DESIGN_PERSON_AND_ORGANIZATION_ASSIGNMENT ( #73, #33, ( #301 ) ) ;
#137 = CARTESIAN_POINT ( 'NONE',  ( 10.00000000000000178, 9.999999999999998224, 10.00000000000000000 ) ) ;
#138 = CARTESIAN_POINT ( 'NONE',  ( 0.000000000000000000, 0.000000000000000000, 0.000000000000000000 ) ) ;
#139 = VECTOR ( 'NONE', #6, 1000.000000000000000 ) ;
#140 = DIRECTION ( 'NONE',  ( -0.000000000000000000, -0.000000000000000000, -1.000000000000000000 ) ) ;
#141 = EDGE_CURVE ( 'NONE', #5, #96, #209, .T. ) ;
#142 = EDGE_LOOP ( 'NONE', ( #271, #88, #36, #225 ) ) ;
#143 = DATE_TIME_ROLE ( 'creation_date' ) ;
#144 = ORIENTED_EDGE ( 'NONE', *, *, #276, .F. ) ;
#145 = DATE_AND_TIME ( #56, #128 ) ;
#146 = PERSON_AND_ORGANIZATION ( #72, #257 ) ;
#147 = AXIS2_PLACEMENT_3D ( 'NONE', #239, #270, #212 ) ;
#148 = UNCERTAINTY_MEASURE_WITH_UNIT (LENGTH_MEASURE( 1.000000000000000082E-05 ), #9, 'distance_accuracy_value', 'NONE');
#149 = CARTESIAN_POINT ( 'NONE',  ( 10.00000000000000000, 10.00000000000000000, 10.00000000000000000 ) ) ;
#150 = ORIENTED_EDGE ( 'NONE', *, *, #273, .F. ) ;
#151 = CC_DESIGN_APPROVAL ( #106, ( #301 ) ) ;
#152 = LINE ( 'NONE', #286, #29 ) ;
#153 = DIRECTION ( 'NONE',  ( 0.000000000000000000, 0.000000000000000000, 1.000000000000000000 ) ) ;
#154 = EDGE_CURVE ( 'NONE', #22, #26, #84, .T. ) ;
#155 = DIRECTION ( 'NONE',  ( 0.7071067811865475727, 0.7071067811865474617, 0.000000000000000000 ) ) ;
#156 = LINE ( 'NONE', #319, #66 ) ;
#157 = AXIS2_PLACEMENT_3D ( 'NONE', #172, #78, #13 ) ;
#158 = VECTOR ( 'NONE', #208, 1000.000000000000000 ) ;
#159 = CARTESIAN_POINT ( 'NONE',  ( 10.00000000000000000, 10.00000000000000000, 10.00000000000000000 ) ) ;
#160 = LINE ( 'NONE', #20, #266 ) ;
#161 = ORIENTED_EDGE ( 'NONE', *, *, #82, .T. ) ;
#162 = CARTESIAN_POINT ( 'NONE',  ( -9.999999999999998224, -10.00000000000000000, -10.00000000000000000 ) ) ;
#163 = CARTESIAN_POINT ( 'NONE',  ( 10.00000000000000178, 9.999999999999998224, 10.00000000000000000 ) ) ;
#164 = DESIGN_CONTEXT ( 'detailed design', #274, 'design' ) ;
#165 = ORIENTED_EDGE ( 'NONE', *, *, #218, .T. ) ;
#166 = DATE_AND_TIME ( #299, #168 ) ;
#167 = VERTEX_POINT ( 'NONE', #181 ) ;
#168 = LOCAL_TIME ( 11, 13, 50.00000000000000000, #118 ) ;
#169 = APPROVAL ( #93, 'UNSPECIFIED' ) ;
#170 = COORDINATED_UNIVERSAL_TIME_OFFSET ( 8, 0, .AHEAD. ) ;
#171 = CALENDAR_DATE ( 2020, 22, 12 ) ;
#172 = CARTESIAN_POINT ( 'NONE',  ( 0.000000000000000000, 0.000000000000000000, -10.00000000000000000 ) ) ;
#173 = CLOSED_SHELL ( 'NONE', ( #191, #34, #261, #227, #304 ) ) ;
#174 = VECTOR ( 'NONE', #111, 1000.000000000000000 ) ;
#175 = LINE ( 'NONE', #258, #158 ) ;
#176 = FACE_OUTER_BOUND ( 'NONE', #100, .T. ) ;
#177 = CC_DESIGN_DATE_AND_TIME_ASSIGNMENT ( #275, #143, ( #230 ) ) ;
#178 = CARTESIAN_POINT ( 'NONE',  ( 10.00000000000000178, -10.00000000000000000, 10.00000000000000000 ) ) ;
#179 = DIRECTION ( 'NONE',  ( 1.000000000000000000, 0.000000000000000000, 0.000000000000000000 ) ) ;
#180 = PERSON_AND_ORGANIZATION ( #72, #257 ) ;
#181 = CARTESIAN_POINT ( 'NONE',  ( -9.999999999999998224, -10.00000000000000000, 10.00000000000000000 ) ) ;
#182 = VECTOR ( 'NONE', #25, 1000.000000000000000 ) ;
#183 = AXIS2_PLACEMENT_3D ( 'NONE', #59, #259, #153 ) ;
#184 = ORIENTED_EDGE ( 'NONE', *, *, #316, .T. ) ;
#185 = DIRECTION ( 'NONE',  ( 0.000000000000000000, 0.000000000000000000, 1.000000000000000000 ) ) ;
#186 = ORIENTED_EDGE ( 'NONE', *, *, #313, .F. ) ;
#187 = EDGE_LOOP ( 'NONE', ( #144, #302, #211, #184 ) ) ;
#188 = VECTOR ( 'NONE', #272, 1000.000000000000000 ) ;
#189 = CARTESIAN_POINT ( 'NONE',  ( 0.000000000000000000, 0.000000000000000000, 10.00000000000000000 ) ) ;
#190 = ORIENTED_EDGE ( 'NONE', *, *, #238, .F. ) ;
#191 = ADVANCED_FACE ( 'NONE', ( #49 ), #289, .F. ) ;
#192 = PLANE ( 'NONE',  #219 ) ;
#193 = APPROVAL_ROLE ( '' ) ;
#194 = ORIENTED_EDGE ( 'NONE', *, *, #24, .F. ) ;
#195 = LINE ( 'NONE', #163, #310 ) ;
#196 = PERSON_AND_ORGANIZATION_ROLE ( 'creator' ) ;
#197 = VERTEX_POINT ( 'NONE', #162 ) ;
#198 = APPROVAL_PERSON_ORGANIZATION ( #236, #121, #315 ) ;
#199 = ORIENTED_EDGE ( 'NONE', *, *, #291, .T. ) ;
#200 = EDGE_LOOP ( 'NONE', ( #186, #306, #226 ) ) ;
#201 = ADVANCED_BREP_SHAPE_REPRESENTATION ( 'BK7-LPBSC-20-915', ( #102, #98, #114 ), #283 ) ;
#202 = APPROVAL_ROLE ( '' ) ;
#203 = CARTESIAN_POINT ( 'NONE',  ( -10.00000000000000178, -9.999999999999996447, 10.00000000000000000 ) ) ;
#204 = VECTOR ( 'NONE', #215, 1000.000000000000000 ) ;
#205 = AXIS2_PLACEMENT_3D ( 'NONE', #65, #44, #179 ) ;
#206 = PLANE ( 'NONE',  #183 ) ;
#207 = DIRECTION ( 'NONE',  ( 0.000000000000000000, 1.000000000000000000, 0.000000000000000000 ) ) ;
#208 = DIRECTION ( 'NONE',  ( 2.220446049250313081E-16, 1.000000000000000000, 0.000000000000000000 ) ) ;
#209 = LINE ( 'NONE', #17, #279 ) ;
#210 = DATE_TIME_ROLE ( 'classification_date' ) ;
#211 = ORIENTED_EDGE ( 'NONE', *, *, #40, .T. ) ;
#212 = DIRECTION ( 'NONE',  ( 0.000000000000000000, 0.000000000000000000, 1.000000000000000000 ) ) ;
#213 = LOCAL_TIME ( 11, 13, 50.00000000000000000, #170 ) ;
#214 = EDGE_LOOP ( 'NONE', ( #190, #133, #52 ) ) ;
#215 = DIRECTION ( 'NONE',  ( -0.7071067811865475727, -0.7071067811865474617, 0.000000000000000000 ) ) ;
#216 = ORIENTED_EDGE ( 'NONE', *, *, #320, .T. ) ;
#217 = FACE_OUTER_BOUND ( 'NONE', #200, .T. ) ;
#218 = EDGE_CURVE ( 'NONE', #123, #110, #160, .T. ) ;
#219 = AXIS2_PLACEMENT_3D ( 'NONE', #189, #69, #297 ) ;
#220 = CARTESIAN_POINT ( 'NONE',  ( -10.00000000000000178, -9.999999999999996447, -10.00000000000000000 ) ) ;
#221 = PERSON_AND_ORGANIZATION_ROLE ( 'design_owner' ) ;
#222 = CC_DESIGN_PERSON_AND_ORGANIZATION_ASSIGNMENT ( #240, #126, ( #2 ) ) ;
#223 = CARTESIAN_POINT ( 'NONE',  ( 10.00000000000000178, 9.999999999999998224, -10.00000000000000000 ) ) ;
#224 = PERSON_AND_ORGANIZATION ( #72, #257 ) ;
#225 = ORIENTED_EDGE ( 'NONE', *, *, #122, .T. ) ;
#226 = ORIENTED_EDGE ( 'NONE', *, *, #295, .F. ) ;
#227 = ADVANCED_FACE ( 'NONE', ( #16 ), #68, .T. ) ;
#228 = APPROVAL_PERSON_ORGANIZATION ( #249, #169, #193 ) ;
#229 = DIRECTION ( 'NONE',  ( 0.000000000000000000, 0.000000000000000000, 1.000000000000000000 ) ) ;
#230 = PRODUCT_DEFINITION ( 'UNKNOWN', '', #301, #164 ) ;
#231 = CARTESIAN_POINT ( 'NONE',  ( -9.999999999999998224, 10.00000000000000355, 10.00000000000000000 ) ) ;
#232 = EDGE_LOOP ( 'NONE', ( #262, #244, #165 ) ) ;
#233 = DATE_AND_TIME ( #63, #21 ) ;
#234 = AXIS2_PLACEMENT_3D ( 'NONE', #159, #130, #155 ) ;
#235 = FACE_OUTER_BOUND ( 'NONE', #232, .T. ) ;
#236 = PERSON_AND_ORGANIZATION ( #72, #257 ) ;
#237 = CARTESIAN_POINT ( 'NONE',  ( 10.00000000000000178, 9.999999999999998224, 10.00000000000000000 ) ) ;
#238 = EDGE_CURVE ( 'NONE', #26, #71, #109, .T. ) ;
#239 = CARTESIAN_POINT ( 'NONE',  ( 10.00000000000000000, 10.00000000000000000, 10.00000000000000000 ) ) ;
#240 = PERSON_AND_ORGANIZATION ( #72, #257 ) ;
#241 = CC_DESIGN_APPROVAL ( #121, ( #2 ) ) ;
#242 = CC_DESIGN_DATE_AND_TIME_ASSIGNMENT ( #233, #210, ( #2 ) ) ;
#243 = DIRECTION ( 'NONE',  ( 0.7071067811865474617, -0.7071067811865475727, 0.000000000000000000 ) ) ;
#244 = ORIENTED_EDGE ( 'NONE', *, *, #276, .T. ) ;
#245 = LINE ( 'NONE', #137, #101 ) ;
#246 = LINE ( 'NONE', #27, #182 ) ;
#247 = MECHANICAL_CONTEXT ( 'NONE', #312, 'mechanical' ) ;
#248 = PLANE ( 'NONE',  #290 ) ;
#249 = PERSON_AND_ORGANIZATION ( #72, #257 ) ;
#250 = VECTOR ( 'NONE', #256, 1000.000000000000000 ) ;
#251 = ORIENTED_EDGE ( 'NONE', *, *, #320, .F. ) ;
#252 = DIRECTION ( 'NONE',  ( 1.000000000000000000, 0.000000000000000000, 0.000000000000000000 ) ) ;
#253 = ORIENTED_EDGE ( 'NONE', *, *, #74, .T. ) ;
#254 = APPROVAL_DATE_TIME ( #145, #106 ) ;
#255 = EDGE_CURVE ( 'NONE', #70, #5, #156, .T. ) ;
#256 = DIRECTION ( 'NONE',  ( 1.000000000000000000, 0.000000000000000000, 0.000000000000000000 ) ) ;
#257 = ORGANIZATION ( 'UNSPECIFIED', 'UNSPECIFIED', '' ) ;
#258 = CARTESIAN_POINT ( 'NONE',  ( -10.00000000000000178, -9.999999999999996447, 10.00000000000000000 ) ) ;
#259 = DIRECTION ( 'NONE',  ( 1.000000000000000000, -2.220446049250313081E-16, 0.000000000000000000 ) ) ;
#260 = APPROVAL_DATE_TIME ( #85, #121 ) ;
#261 = ADVANCED_FACE ( 'NONE', ( #317 ), #265, .F. ) ;
#262 = ORIENTED_EDGE ( 'NONE', *, *, #273, .T. ) ;
#263 = LINE ( 'NONE', #296, #188 ) ;
#264 = AXIS2_PLACEMENT_3D ( 'NONE', #131, #269, #185 ) ;
#265 = PLANE ( 'NONE',  #264 ) ;
#266 = VECTOR ( 'NONE', #135, 1000.000000000000000 ) ;
#267 = CARTESIAN_POINT ( 'NONE',  ( 10.00000000000000000, 10.00000000000000000, 10.00000000000000000 ) ) ;
#268 = ORIENTED_EDGE ( 'NONE', *, *, #255, .F. ) ;
#269 = DIRECTION ( 'NONE',  ( -1.000000000000000000, 0.000000000000000000, 0.000000000000000000 ) ) ;
#270 = DIRECTION ( 'NONE',  ( -2.220446049250313081E-16, -1.000000000000000000, 0.000000000000000000 ) ) ;
#271 = ORIENTED_EDGE ( 'NONE', *, *, #218, .F. ) ;
#272 = DIRECTION ( 'NONE',  ( 2.220446049250313081E-16, 1.000000000000000000, 0.000000000000000000 ) ) ;
#273 = EDGE_CURVE ( 'NONE', #110, #293, #23, .T. ) ;
#274 = APPLICATION_CONTEXT ( 'configuration controlled 3d designs of mechanical parts and assemblies' ) ;
#275 = DATE_AND_TIME ( #171, #213 ) ;
#276 = EDGE_CURVE ( 'NONE', #293, #123, #263, .T. ) ;
#277 = APPROVAL_PERSON_ORGANIZATION ( #146, #106, #202 ) ;
#278 = LINE ( 'NONE', #149, #53 ) ;
#279 = VECTOR ( 'NONE', #314, 1000.000000000000000 ) ;
#280 = CC_DESIGN_PERSON_AND_ORGANIZATION_ASSIGNMENT ( #180, #285, ( #301 ) ) ;
#281 = CARTESIAN_POINT ( 'NONE',  ( 10.00000000000000178, 9.999999999999998224, -10.00000000000000000 ) ) ;
#282 = PLANE ( 'NONE',  #307 ) ;
#283 =( GEOMETRIC_REPRESENTATION_CONTEXT ( 3 ) GLOBAL_UNCERTAINTY_ASSIGNED_CONTEXT ( ( #148 ) ) GLOBAL_UNIT_ASSIGNED_CONTEXT ( ( #9, #54, #95 ) ) REPRESENTATION_CONTEXT ( 'NONE', 'WORKASPACE' ) );
#284 = CARTESIAN_POINT ( 'NONE',  ( -10.00000000000000178, -9.999999999999996447, 10.00000000000000000 ) ) ;
#285 = PERSON_AND_ORGANIZATION_ROLE ( 'design_supplier' ) ;
#286 = CARTESIAN_POINT ( 'NONE',  ( 10.00000000000000178, 9.999999999999998224, 10.00000000000000000 ) ) ;
#287 = ADVANCED_FACE ( 'NONE', ( #113 ), #192, .T. ) ;
#288 = CARTESIAN_POINT ( 'NONE',  ( 10.00000000000000000, 10.00000000000000000, -10.00000000000000000 ) ) ;
#289 = PLANE ( 'NONE',  #318 ) ;
#290 = AXIS2_PLACEMENT_3D ( 'NONE', #50, #4, #30 ) ;
#291 = EDGE_CURVE ( 'NONE', #32, #96, #245, .T. ) ;
#292 = PLANE ( 'NONE',  #147 ) ;
#293 = VERTEX_POINT ( 'NONE', #220 ) ;
#294 = DIRECTION ( 'NONE',  ( -0.000000000000000000, -0.000000000000000000, -1.000000000000000000 ) ) ;
#295 = EDGE_CURVE ( 'NONE', #197, #5, #246, .T. ) ;
#296 = CARTESIAN_POINT ( 'NONE',  ( -10.00000000000000178, -9.999999999999996447, -10.00000000000000000 ) ) ;
#297 = DIRECTION ( 'NONE',  ( 2.220446049250313081E-16, 1.000000000000000000, 0.000000000000000000 ) ) ;
#298 = DIRECTION ( 'NONE',  ( -0.000000000000000000, 1.000000000000000000, -0.000000000000000000 ) ) ;
#299 = CALENDAR_DATE ( 2020, 22, 12 ) ;
#300 = ORIENTED_EDGE ( 'NONE', *, *, #141, .T. ) ;
#301 = PRODUCT_DEFINITION_FORMATION_WITH_SPECIFIED_SOURCE ( 'ANY', '', #46, .NOT_KNOWN. ) ;
#302 = ORIENTED_EDGE ( 'NONE', *, *, #82, .F. ) ;
#303 = PRODUCT_DEFINITION_SHAPE ( 'NONE', 'NONE',  #230 ) ;
#304 = ADVANCED_FACE ( 'NONE', ( #217 ), #248, .F. ) ;
#305 = DIRECTION ( 'NONE',  ( -0.000000000000000000, -0.000000000000000000, -1.000000000000000000 ) ) ;
#306 = ORIENTED_EDGE ( 'NONE', *, *, #141, .F. ) ;
#307 = AXIS2_PLACEMENT_3D ( 'NONE', #105, #207, #125 ) ;
#308 = CARTESIAN_POINT ( 'NONE',  ( 10.00000000000000000, 10.00000000000000000, 10.00000000000000000 ) ) ;
#309 = LINE ( 'NONE', #77, #117 ) ;
#310 = VECTOR ( 'NONE', #298, 1000.000000000000000 ) ;
#311 = ORIENTED_EDGE ( 'NONE', *, *, #24, .T. ) ;
#312 = APPLICATION_CONTEXT ( 'configuration controlled 3d designs of mechanical parts and assemblies' ) ;
#313 = EDGE_CURVE ( 'NONE', #96, #197, #92, .T. ) ;
#314 = DIRECTION ( 'NONE',  ( -0.000000000000000000, 1.000000000000000000, -0.000000000000000000 ) ) ;
#315 = APPROVAL_ROLE ( '' ) ;
#316 = EDGE_CURVE ( 'NONE', #22, #123, #1, .T. ) ;
#317 = FACE_OUTER_BOUND ( 'NONE', #19, .T. ) ;
#318 = AXIS2_PLACEMENT_3D ( 'NONE', #47, #243, #83 ) ;
#319 = CARTESIAN_POINT ( 'NONE',  ( 10.00000000000000178, -10.00000000000000000, 10.00000000000000000 ) ) ;
#320 = EDGE_CURVE ( 'NONE', #70, #32, #195, .T. ) ;
#321 = EDGE_LOOP ( 'NONE', ( #150, #116, #10, #161 ) ) ;
ENDSEC;
END-ISO-10303-21;
